lunes, 5 de noviembre de 2007

Acordes "Seminare"

G           D/F#          Em
Quiero ver, quiero entrar
B7 C
nena nadie te va a hacer mal
Dsus4 D
excepto amarte.

Vas aqui, vas allá
pero nunca te encontraras
al escaparte.

Am G C
No hay fuerza alrede- dor
D/C Em
no hay pociones para el amor
Em/D
donde estas?
Em/C#
donde voy?
Cm G
Porque estamos en la calle
C B7 Em
de la sen- sa- ción
A7 D
muy lejos del sol
C/D G
que quema de amor.

Te doy pan
quieres sal
nena nunca te voy a dar
lo que me pides.
Te doy Dios
quieres mas
es que nunca comprenderás
a un pobre pibe.
Esas motos que van a mil
solo el viento te hará sentir
nada mas
nada mas.
Si pudieras olvidar tu mente
frente a mi, se
que tu corazón
diría que si.

G, A, Bm, C, G, C, G, C, E, Am

Solo:

G A/G

E ---------3--------------------------0--5--0----------0--
B ---0--3------3--0-----0--3-------2-----------2----2-----
G 0------------------0----------2-----------------2-------
D --------------------------------------------------------
A --------------------------------------------------------
E --------------------------------------------------------


G C/G G

E ---------3-------0--3---3---
B ---0--3-------1---------0---
G 0-----------------------0---
D ------------------------0---
A ------------------------2---
E ------------------------3---